Jump to content

Probleme Main Gauche Sur Raining Blood (slayer)


Recommended Posts

Salut, donc voila j'ai un probleme pour jouer ca:

 214 bpm
|-----------------|-----------------|-----------------|-----------------|
|-----------------|-----------------|-----------------|-----------------|
|-----------------|-----------------|-----------------|-------------1---|
|-5---6---5---6---|-5---6---5---6---|-5320643053206430|-532064305320--03|

|-----------------|-----------------|-----------------|-----------------|
|-----------------|-----------------|-----------------|-----------------|
|-----------------|-----------------|-----------------|-------------1---|
|-5320643053206430|-532064303---6-03|-5320643053206430|-532064305320--03|

|-----------------|-----------------|-----------------|-----------------|
|-----------------|-----------------|-----------------|-----------------|
|-----------------|-----------------|-----------------|-------------1---|
|-5320643053206430|-532064303---6-03|-5320643053206430|-532064305320--03|

|-----------------|-----------------||
|-----------------|-----------------||
|-----------------|-----------------||
|-5320643053206430|-532064303---6---||

Un bout de deuxieme ligne j'ai le muscle de mon poignet gauche en feu, et je suis plus precis mon majeur glisse sur la case a l'arrache et pareil pour mon index, comment faire?

Ps: je joue au mediator.

Link to post
Share on other sites

Le bourrinage sur le gros mi a ses limites surtout ? ce tempo, les tab marqu?es 5 et 6 sur le Mi pourraient être jou?es sur la corde de La ? condition de les ?touffer après les avoir jou?es.

J'ai eu le même genre de souci avec le refrain de aces high de Maiden et j'ai essayé 3 positions diff?rentes sur le manche pour être ? l'aise, là t'as pas trop le choix vu que c'est dans les graves (? moins que tu aies une 5 cordes :goute: ).

Sans ?a il faut jouer lentement, très lentement, puis de plus en plus vite, jamais jouer vite tout de suite :blush:

Link to post
Share on other sites

Pas mieux :)

Et encore, c'est loin d'être le morceau le plus dur de Slayer ... certes c'est de la double croche ? 214 (et alors ?? :lollarge: ), mais c'est tout sur la même corde ! Le même genre de truc avec des sauts de cordes dans tous les sens ?a serait l'horreur ...

Edited by Sven
Link to post
Share on other sites

mais c'est de la croche sur ce passage! ert puis araya fait jamais la double de toute façon (ou alors très rarement et ?a s'entend pas)

l'exo le mieux c'est de bosser les "araign?es" en gros un doigt par case et par corde

- - - 4 1 - - -

- - 3 - - 2 - -

- 2 - - - - 3 -

1 - - - - - - 4 et tu montes d'une case, et etc. fais attention ? la propret? du jeu (note franche, attaqu?e proprement et pas de frizzouille :lollarge: )

EDIT: je retire, pour les croches, plant? de passage... mais il fait ?a araya? m'?tonnerait

Link to post
Share on other sites

de toutes facon je crois que je vais l'adapter a ma sauce, pk de toutes façons ce passage ressemble pas a grand chose ( c'est vrai quoi....) je vais caler un truc plus tranquille. En tout cas merci pour vos reponses.

ps: l'exo de l'araign?e je vais tester ca plustard :) merci

Link to post
Share on other sites
il est feignant le Araya :)

bah ptetre, mais en tout cas il a raison, ?a ferait de la bouillasse qui sert ? rien, autant assumer le r?le de rythmicien et se caler sur la grosse caisse!

Link to post
Share on other sites

Join the conversation

You can post now and register later. If you have an account, sign in now to post with your account.

Guest
Reply to this topic...

×   Pasted as rich text.   Paste as plain text instead

  Only 75 emoji are allowed.

×   Your link has been automatically embedded.   Display as a link instead

×   Your previous content has been restored.   Clear editor

×   You cannot paste images directly. Upload or insert images from URL.

×
×
  • Create New...